ISO-10303-21;
HEADER;
FILE_DESCRIPTION (( 'STEP AP203' ),
    '1' );
FILE_NAME ('100053004.step',
    '2021-04-26T12:00:23',
    ( '' ),
    ( '' ),
    'SwSTEP 2.0',
    'SolidWorks 2018',
    '' );
FILE_SCHEMA (( 'CONFIG_CONTROL_DESIGN' ));
ENDSEC;

DATA;
#1 = APPROVAL ( #266, 'UNSPECIFIED' ) ;
#2 = ORIENTED_EDGE ( 'NONE', *, *, #185, .F. ) ;
#3 = DATE_AND_TIME ( #162, #247 ) ;
#4 = EDGE_LOOP ( 'NONE', ( #71, #257, #15, #78 ) ) ;
#5 = DIRECTION ( 'NONE',  ( 0.000000000000000000, 0.000000000000000000, -1.000000000000000000 ) ) ;
#6 = CC_DESIGN_PERSON_AND_ORGANIZATION_ASSIGNMENT ( #189, #19, ( #184 ) ) ;
#7 = DIRECTION ( 'NONE',  ( 0.000000000000000000, 0.000000000000000000, -1.000000000000000000 ) ) ;
#8 = CIRCLE ( 'NONE', #228, 2.000000000000001776 ) ;
#9 = CC_DESIGN_PERSON_AND_ORGANIZATION_ASSIGNMENT ( #79, #67, ( #91 ) ) ;
#10 = PERSON_AND_ORGANIZATION_ROLE ( 'creator' ) ;
#11 = PERSON_AND_ORGANIZATION_ROLE ( 'design_supplier' ) ;
#12 = PERSON_AND_ORGANIZATION ( #105, #102 ) ;
#13 = COORDINATED_UNIVERSAL_TIME_OFFSET ( 1, 0, .AHEAD. ) ;
#14 = APPLICATION_PROTOCOL_DEFINITION ( 'international standard', 'config_control_design', 1994, #35 ) ;
#15 = ORIENTED_EDGE ( 'NONE', *, *, #185, .T. ) ;
#16 = CARTESIAN_POINT ( 'NONE',  ( 0.000000000000000000, 0.000000000000000000, 0.000000000000000000 ) ) ;
#17 = DIRECTION ( 'NONE',  ( -1.224646799147353454E-16, 0.000000000000000000, -1.000000000000000000 ) ) ;
#18 = DATE_AND_TIME ( #98, #152 ) ;
#19 = PERSON_AND_ORGANIZATION_ROLE ( 'creator' ) ;
#20 = CC_DESIGN_APPROVAL ( #1, ( #184 ) ) ;
#21 = CALENDAR_DATE ( 2021, 26, 4 ) ;
#22 = PERSON_AND_ORGANIZATION_ROLE ( 'creator' ) ;
#23 = ORIENTED_EDGE ( 'NONE', *, *, #171, .F. ) ;
#24 = AXIS2_PLACEMENT_3D ( 'NONE', #196, #239, #158 ) ;
#25 = PERSON_AND_ORGANIZATION ( #105, #102 ) ;
#26 = CC_DESIGN_APPROVAL ( #188, ( #232 ) ) ;
#27 = DATE_AND_TIME ( #170, #229 ) ;
#28 = COORDINATED_UNIVERSAL_TIME_OFFSET ( 1, 0, .AHEAD. ) ;
#29 = AXIS2_PLACEMENT_3D ( 'NONE', #244, #245, #83 ) ;
#30 = VERTEX_POINT ( 'NONE', #187 ) ;
#31 = CC_DESIGN_PERSON_AND_ORGANIZATION_ASSIGNMENT ( #179, #123, ( #99 ) ) ;
#32 = APPROVAL_DATE_TIME ( #27, #188 ) ;
#33 = SECURITY_CLASSIFICATION_LEVEL ( 'unclassified' ) ;
#34 = DIRECTION ( 'NONE',  ( -0.000000000000000000, -1.000000000000000000, -0.000000000000000000 ) ) ;
#35 = APPLICATION_CONTEXT ( 'configuration controlled 3d designs of mechanical parts and assemblies' ) ;
#36 = CARTESIAN_POINT ( 'NONE',  ( 2.694222958124177598E-15, 0.000000000000000000, 22.00000000000000711 ) ) ;
#37 = DESIGN_CONTEXT ( 'detailed design', #205, 'design' ) ;
#38 = COORDINATED_UNIVERSAL_TIME_OFFSET ( 1, 0, .AHEAD. ) ;
#39 = APPLICATION_CONTEXT ( 'configuration controlled 3d designs of mechanical parts and assemblies' ) ;
#40 = CC_DESIGN_PERSON_AND_ORGANIZATION_ASSIGNMENT ( #149, #85, ( #219 ) ) ;
#41 = DATE_TIME_ROLE ( 'creation_date' ) ;
#42 = PRODUCT_DEFINITION_SHAPE ( 'NONE', 'NONE',  #184 ) ;
#43 = SECURITY_CLASSIFICATION_LEVEL ( 'unclassified' ) ;
#44 = AXIS2_PLACEMENT_3D ( 'NONE', #97, #193, #5 ) ;
#45 = ADVANCED_FACE ( 'NONE', ( #48 ), #260, .T. ) ;
#46 = APPROVAL ( #143, 'UNSPECIFIED' ) ;
#47 = COORDINATED_UNIVERSAL_TIME_OFFSET ( 1, 0, .AHEAD. ) ;
#48 = FACE_OUTER_BOUND ( 'NONE', #110, .T. ) ;
#49 = CC_DESIGN_DATE_AND_TIME_ASSIGNMENT ( #218, #41, ( #184 ) ) ;
#50 = CARTESIAN_POINT ( 'NONE',  ( 2.939152317953648683E-15, 0.000000000000000000, 24.00000000000000711 ) ) ;
#51 = EDGE_CURVE ( 'NONE', #263, #231, #226, .T. ) ;
#52 = MANIFOLD_SOLID_BREP ( 'Austragung1', #103 ) ;
#53 = PERSON_AND_ORGANIZATION ( #105, #102 ) ;
#54 = DIRECTION ( 'NONE',  ( -0.000000000000000000, -1.000000000000000000, -0.000000000000000000 ) ) ;
#55 = DIRECTION ( 'NONE',  ( -1.000000000000000000, 0.000000000000000000, 0.000000000000000000 ) ) ;
#56 = CC_DESIGN_PERSON_AND_ORGANIZATION_ASSIGNMENT ( #96, #10, ( #234 ) ) ;
#57 = CIRCLE ( 'NONE', #270, 2.000000000000001776 ) ;
#58 = CARTESIAN_POINT ( 'NONE',  ( 0.000000000000000000, 2.449293598294710359E-16, 0.000000000000000000 ) ) ;
#59 = CIRCLE ( 'NONE', #92, 2.000000000000001776 ) ;
#60 = APPROVAL_STATUS ( 'not_yet_approved' ) ;
#61 = AXIS2_PLACEMENT_3D ( 'NONE', #58, #62, #101 ) ;
#62 = DIRECTION ( 'NONE',  ( -0.000000000000000000, -1.000000000000000000, -0.000000000000000000 ) ) ;
#63 = CIRCLE ( 'NONE', #24, 20.00000000000000355 ) ;
#64 = SECURITY_CLASSIFICATION ( '', '', #33 ) ;
#65 = CARTESIAN_POINT ( 'NONE',  ( 0.000000000000000000, 0.000000000000000000, -20.00000000000000355 ) ) ;
#66 = APPROVAL_PERSON_ORGANIZATION ( #12, #188, #252 ) ;
#67 = PERSON_AND_ORGANIZATION_ROLE ( 'design_supplier' ) ;
#68 = LOCAL_TIME ( 14, 0, 23.00000000000000000, #28 ) ;
#69 = AXIS2_PLACEMENT_3D ( 'NONE', #115, #254, #169 ) ;
#70 = APPROVAL_STATUS ( 'not_yet_approved' ) ;
#71 = ORIENTED_EDGE ( 'NONE', *, *, #51, .F. ) ;
#72 = APPROVAL ( #221, 'UNSPECIFIED' ) ;
#73 = APPROVAL_PERSON_ORGANIZATION ( #53, #1, #128 ) ;
#74 = CALENDAR_DATE ( 2021, 26, 4 ) ;
#75 = AXIS2_PLACEMENT_3D ( 'NONE', #214, #55, #261 ) ;
#76 = CALENDAR_DATE ( 2021, 26, 4 ) ;
#77 = APPROVAL_PERSON_ORGANIZATION ( #249, #46, #125 ) ;
#78 = ORIENTED_EDGE ( 'NONE', *, *, #161, .F. ) ;
#79 = PERSON_AND_ORGANIZATION ( #105, #102 ) ;
#80 = LOCAL_TIME ( 14, 0, 23.00000000000000000, #238 ) ;
#81 = DIRECTION ( 'NONE',  ( -0.000000000000000000, -1.000000000000000000, -0.000000000000000000 ) ) ;
#82 = AXIS2_PLACEMENT_3D ( 'NONE', #237, #54, #100 ) ;
#83 = DIRECTION ( 'NONE',  ( 1.000000000000000000, 0.000000000000000000, 0.000000000000000000 ) ) ;
#84 = LOCAL_TIME ( 14, 0, 23.00000000000000000, #93 ) ;
#85 = PERSON_AND_ORGANIZATION_ROLE ( 'creator' ) ;
#86 = CALENDAR_DATE ( 2021, 26, 4 ) ;
#87 = AXIS2_PLACEMENT_3D ( 'NONE', #183, #34, #222 ) ;
#88 = PERSON_AND_ORGANIZATION_ROLE ( 'classification_officer' ) ;
#89 = PERSON_AND_ORGANIZATION ( #105, #102 ) ;
#90 = ORIENTED_EDGE ( 'NONE', *, *, #161, .T. ) ;
#91 = PRODUCT_DEFINITION_FORMATION_WITH_SPECIFIED_SOURCE ( 'ANY', '', #138, .NOT_KNOWN. ) ;
#92 = AXIS2_PLACEMENT_3D ( 'NONE', #157, #173, #217 ) ;
#93 = COORDINATED_UNIVERSAL_TIME_OFFSET ( 1, 0, .AHEAD. ) ;
#94 = ADVANCED_FACE ( 'NONE', ( #197 ), #180, .T. ) ;
#95 =( GEOMETRIC_REPRESENTATION_CONTEXT ( 3 ) GLOBAL_UNCERTAINTY_ASSIGNED_CONTEXT ( ( #117 ) ) GLOBAL_UNIT_ASSIGNED_CONTEXT ( ( #227, #144, #204 ) ) REPRESENTATION_CONTEXT ( 'NONE', 'WORKASPACE' ) );
#96 = PERSON_AND_ORGANIZATION ( #105, #102 ) ;
#97 = CARTESIAN_POINT ( 'NONE',  ( 0.000000000000000000, 0.000000000000000000, 0.000000000000000000 ) ) ;
#98 = CALENDAR_DATE ( 2021, 26, 4 ) ;
#99 = PRODUCT ( '100053004', '100053004', '', ( #163 ) ) ;
#100 = DIRECTION ( 'NONE',  ( 0.000000000000000000, 0.000000000000000000, -1.000000000000000000 ) ) ;
#101 = DIRECTION ( 'NONE',  ( 0.000000000000000000, 0.000000000000000000, -1.000000000000000000 ) ) ;
#102 = ORGANIZATION ( 'UNSPECIFIED', 'UNSPECIFIED', '' ) ;
#103 = CLOSED_SHELL ( 'NONE', ( #167, #211, #45, #94 ) ) ;
#104 = CARTESIAN_POINT ( 'NONE',  ( 0.000000000000000000, 0.000000000000000000, -22.00000000000000711 ) ) ;
#105 = PERSON ( 'UNSPECIFIED', 'UNSPECIFIED', 'UNSPECIFIED', ('UNSPECIFIED'), ('UNSPECIFIED'), ('UNSPECIFIED') ) ;
#106 = APPLICATION_CONTEXT ( 'configuration controlled 3d designs of mechanical parts and assemblies' ) ;
#107 = PERSON_AND_ORGANIZATION ( #105, #102 ) ;
#108 = APPROVAL ( #60, 'UNSPECIFIED' ) ;
#109 = DATE_TIME_ROLE ( 'classification_date' ) ;
#110 = EDGE_LOOP ( 'NONE', ( #236, #166, #90, #220 ) ) ;
#111 = APPROVAL_ROLE ( '' ) ;
#112 = EDGE_LOOP ( 'NONE', ( #192, #23, #133, #243 ) ) ;
#113 = PERSON_AND_ORGANIZATION ( #105, #102 ) ;
#114 = DESIGN_CONTEXT ( 'detailed design', #106, 'design' ) ;
#115 = CARTESIAN_POINT ( 'NONE',  ( 0.000000000000000000, 0.000000000000000000, 0.000000000000000000 ) ) ;
#116 = PERSON_AND_ORGANIZATION ( #105, #102 ) ;
#117 = UNCERTAINTY_MEASURE_WITH_UNIT (LENGTH_MEASURE( 1.000000000000000082E-05 ), #227, 'distance_accuracy_value', 'NONE');
#118 = CC_DESIGN_APPROVAL ( #212, ( #91 ) ) ;
#119 = CIRCLE ( 'NONE', #258, 24.00000000000000711 ) ;
#120 = CARTESIAN_POINT ( 'NONE',  ( 0.000000000000000000, 0.000000000000000000, 0.000000000000000000 ) ) ;
#121 = FACE_OUTER_BOUND ( 'NONE', #156, .T. ) ;
#122 = AXIS2_PLACEMENT_3D ( 'NONE', #16, #225, #124 ) ;
#123 = PERSON_AND_ORGANIZATION_ROLE ( 'design_owner' ) ;
#124 = DIRECTION ( 'NONE',  ( 1.000000000000000000, 0.000000000000000000, 0.000000000000000000 ) ) ;
#125 = APPROVAL_ROLE ( '' ) ;
#126 = TOROIDAL_SURFACE ( 'NONE', #153, 22.00000000000000711, 2.000000000000003109 ) ;
#127 = APPLICATION_PROTOCOL_DEFINITION ( 'international standard', 'config_control_design', 1994, #106 ) ;
#128 = APPROVAL_ROLE ( '' ) ;
#129 = CC_DESIGN_PERSON_AND_ORGANIZATION_ASSIGNMENT ( #251, #11, ( #234 ) ) ;
#130 = CIRCLE ( 'NONE', #87, 24.00000000000000711 ) ;
#131 = CC_DESIGN_DATE_AND_TIME_ASSIGNMENT ( #18, #209, ( #232 ) ) ;
#132 = LOCAL_TIME ( 14, 0, 23.00000000000000000, #155 ) ;
#133 = ORIENTED_EDGE ( 'NONE', *, *, #241, .T. ) ;
#134 = CC_DESIGN_DATE_AND_TIME_ASSIGNMENT ( #267, #109, ( #64 ) ) ;
#135 = CALENDAR_DATE ( 2021, 26, 4 ) ;
#136 = APPROVAL_DATE_TIME ( #259, #1 ) ;
#137 = CIRCLE ( 'NONE', #61, 20.00000000000000355 ) ;
#138 = PRODUCT ( '100053004', '100053004', '', ( #182 ) ) ;
#139 = PERSON_AND_ORGANIZATION ( #105, #102 ) ;
#140 = DATE_AND_TIME ( #190, #68 ) ;
#141 = CC_DESIGN_DATE_AND_TIME_ASSIGNMENT ( #172, #206, ( #219 ) ) ;
#142 = PRODUCT_DEFINITION_SHAPE ( 'NONE', 'NONE',  #219 ) ;
#143 = APPROVAL_STATUS ( 'not_yet_approved' ) ;
#144 =( NAMED_UNIT ( * ) PLANE_ANGLE_UNIT ( ) SI_UNIT ( $, .RADIAN. ) );
#145 = APPROVAL_ROLE ( '' ) ;
#146 = APPLICATION_PROTOCOL_DEFINITION ( 'international standard', 'config_control_design', 1994, #39 ) ;
#147 = CC_DESIGN_APPROVAL ( #108, ( #234 ) ) ;
#148 = PERSON_AND_ORGANIZATION ( #105, #102 ) ;
#149 = PERSON_AND_ORGANIZATION ( #105, #102 ) ;
#150 = VERTEX_POINT ( 'NONE', #50 ) ;
#151 = EDGE_CURVE ( 'NONE', #263, #150, #119, .T. ) ;
#152 = LOCAL_TIME ( 14, 0, 23.00000000000000000, #174 ) ;
#153 = AXIS2_PLACEMENT_3D ( 'NONE', #120, #199, #177 ) ;
#154 = SHAPE_DEFINITION_REPRESENTATION ( #42, #159 ) ;
#155 = COORDINATED_UNIVERSAL_TIME_OFFSET ( 1, 0, .AHEAD. ) ;
#156 = EDGE_LOOP ( 'NONE', ( #2, #255, #216, #203 ) ) ;
#157 = CARTESIAN_POINT ( 'NONE',  ( 2.694222958124177598E-15, 0.000000000000000000, 22.00000000000000711 ) ) ;
#158 = DIRECTION ( 'NONE',  ( 0.000000000000000000, 0.000000000000000000, -1.000000000000000000 ) ) ;
#159 = ADVANCED_BREP_SHAPE_REPRESENTATION ( '100053004', ( #52, #29 ), #95 ) ;
#160 = CARTESIAN_POINT ( 'NONE',  ( 0.000000000000000000, 0.000000000000000000, -24.00000000000000711 ) ) ;
#161 = EDGE_CURVE ( 'NONE', #231, #30, #63, .T. ) ;
#162 = CALENDAR_DATE ( 2021, 26, 4 ) ;
#163 = MECHANICAL_CONTEXT ( 'NONE', #39, 'mechanical' ) ;
#164 = TOROIDAL_SURFACE ( 'NONE', #82, 22.00000000000000711, 2.000000000000003109 ) ;
#165 = DIRECTION ( 'NONE',  ( 0.000000000000000000, 0.000000000000000000, 1.000000000000000000 ) ) ;
#166 = ORIENTED_EDGE ( 'NONE', *, *, #201, .F. ) ;
#167 = ADVANCED_FACE ( 'NONE', ( #121 ), #164, .T. ) ;
#168 = COORDINATED_UNIVERSAL_TIME_OFFSET ( 1, 0, .AHEAD. ) ;
#169 = DIRECTION ( 'NONE',  ( 0.000000000000000000, 0.000000000000000000, -1.000000000000000000 ) ) ;
#170 = CALENDAR_DATE ( 2021, 26, 4 ) ;
#171 = EDGE_CURVE ( 'NONE', #30, #150, #59, .T. ) ;
#172 = DATE_AND_TIME ( #135, #242 ) ;
#173 = DIRECTION ( 'NONE',  ( 1.000000000000000000, 0.000000000000000000, -1.224646799147353207E-16 ) ) ;
#174 = COORDINATED_UNIVERSAL_TIME_OFFSET ( 1, 0, .AHEAD. ) ;
#175 = APPROVAL_DATE_TIME ( #233, #108 ) ;
#176 = APPLICATION_PROTOCOL_DEFINITION ( 'international standard', 'config_control_design', 1994, #205 ) ;
#177 = DIRECTION ( 'NONE',  ( 0.000000000000000000, 0.000000000000000000, -1.000000000000000000 ) ) ;
#178 = APPROVAL_PERSON_ORGANIZATION ( #116, #212, #111 ) ;
#179 = PERSON_AND_ORGANIZATION ( #105, #102 ) ;
#180 = TOROIDAL_SURFACE ( 'NONE', #44, 22.00000000000000711, 2.000000000000003109 ) ;
#181 = CC_DESIGN_PERSON_AND_ORGANIZATION_ASSIGNMENT ( #148, #88, ( #232 ) ) ;
#182 = MECHANICAL_CONTEXT ( 'NONE', #35, 'mechanical' ) ;
#183 = CARTESIAN_POINT ( 'NONE',  ( 0.000000000000000000, 0.000000000000000000, 0.000000000000000000 ) ) ;
#184 = PRODUCT_DEFINITION ( 'UNKNOWN', '', #91, #114 ) ;
#185 = EDGE_CURVE ( 'NONE', #150, #30, #57, .T. ) ;
#186 = APPROVAL_PERSON_ORGANIZATION ( #107, #72, #145 ) ;
#187 = CARTESIAN_POINT ( 'NONE',  ( 2.449293598294706907E-15, 0.000000000000000000, 20.00000000000000355 ) ) ;
#188 = APPROVAL ( #70, 'UNSPECIFIED' ) ;
#189 = PERSON_AND_ORGANIZATION ( #105, #102 ) ;
#190 = CALENDAR_DATE ( 2021, 26, 4 ) ;
#191 = CC_DESIGN_PERSON_AND_ORGANIZATION_ASSIGNMENT ( #113, #265, ( #64 ) ) ;
#192 = ORIENTED_EDGE ( 'NONE', *, *, #213, .F. ) ;
#193 = DIRECTION ( 'NONE',  ( -0.000000000000000000, -1.000000000000000000, -0.000000000000000000 ) ) ;
#194 = CARTESIAN_POINT ( 'NONE',  ( 0.000000000000000000, 0.000000000000000000, 0.000000000000000000 ) ) ;
#195 = CC_DESIGN_SECURITY_CLASSIFICATION ( #64, ( #234 ) ) ;
#196 = CARTESIAN_POINT ( 'NONE',  ( 0.000000000000000000, 2.449293598294710359E-16, 0.000000000000000000 ) ) ;
#197 = FACE_OUTER_BOUND ( 'NONE', #112, .T. ) ;
#198 = CC_DESIGN_PERSON_AND_ORGANIZATION_ASSIGNMENT ( #139, #22, ( #91 ) ) ;
#199 = DIRECTION ( 'NONE',  ( -0.000000000000000000, -1.000000000000000000, -0.000000000000000000 ) ) ;
#200 = APPROVAL_DATE_TIME ( #140, #46 ) ;
#201 = EDGE_CURVE ( 'NONE', #231, #263, #8, .T. ) ;
#202 = APPROVAL_ROLE ( '' ) ;
#203 = ORIENTED_EDGE ( 'NONE', *, *, #241, .F. ) ;
#204 =( NAMED_UNIT ( * ) SI_UNIT ( $, .STERADIAN. ) SOLID_ANGLE_UNIT ( ) );
#205 = APPLICATION_CONTEXT ( 'configuration controlled 3d designs of mechanical parts and assemblies' ) ;
#206 = DATE_TIME_ROLE ( 'creation_date' ) ;
#207 = DATE_AND_TIME ( #76, #132 ) ;
#208 = CC_DESIGN_SECURITY_CLASSIFICATION ( #232, ( #91 ) ) ;
#209 = DATE_TIME_ROLE ( 'classification_date' ) ;
#210 = LOCAL_TIME ( 14, 0, 23.00000000000000000, #47 ) ;
#211 = ADVANCED_FACE ( 'NONE', ( #224 ), #126, .T. ) ;
#212 = APPROVAL ( #269, 'UNSPECIFIED' ) ;
#213 = EDGE_CURVE ( 'NONE', #150, #263, #130, .T. ) ;
#214 = CARTESIAN_POINT ( 'NONE',  ( 0.000000000000000000, 0.000000000000000000, -22.00000000000000711 ) ) ;
#215 = COORDINATED_UNIVERSAL_TIME_OFFSET ( 1, 0, .AHEAD. ) ;
#216 = ORIENTED_EDGE ( 'NONE', *, *, #51, .T. ) ;
#217 = DIRECTION ( 'NONE',  ( -1.224646799147353454E-16, 0.000000000000000000, -1.000000000000000000 ) ) ;
#218 = DATE_AND_TIME ( #86, #235 ) ;
#219 = PRODUCT_DEFINITION ( 'UNKNOWN', '', #234, #37 ) ;
#220 = ORIENTED_EDGE ( 'NONE', *, *, #171, .T. ) ;
#221 = APPROVAL_STATUS ( 'not_yet_approved' ) ;
#222 = DIRECTION ( 'NONE',  ( 0.000000000000000000, 0.000000000000000000, -1.000000000000000000 ) ) ;
#223 = APPROVAL_DATE_TIME ( #3, #72 ) ;
#224 = FACE_OUTER_BOUND ( 'NONE', #4, .T. ) ;
#225 = DIRECTION ( 'NONE',  ( 0.000000000000000000, 0.000000000000000000, 1.000000000000000000 ) ) ;
#226 = CIRCLE ( 'NONE', #75, 2.000000000000001776 ) ;
#227 =( LENGTH_UNIT ( ) NAMED_UNIT ( * ) SI_UNIT ( .MILLI., .METRE. ) );
#228 = AXIS2_PLACEMENT_3D ( 'NONE', #104, #240, #165 ) ;
#229 = LOCAL_TIME ( 14, 0, 23.00000000000000000, #38 ) ;
#230 = APPROVAL_PERSON_ORGANIZATION ( #25, #108, #202 ) ;
#231 = VERTEX_POINT ( 'NONE', #65 ) ;
#232 = SECURITY_CLASSIFICATION ( '', '', #43 ) ;
#233 = DATE_AND_TIME ( #74, #80 ) ;
#234 = PRODUCT_DEFINITION_FORMATION_WITH_SPECIFIED_SOURCE ( 'ANY', '', #99, .NOT_KNOWN. ) ;
#235 = LOCAL_TIME ( 14, 0, 23.00000000000000000, #215 ) ;
#236 = ORIENTED_EDGE ( 'NONE', *, *, #151, .F. ) ;
#237 = CARTESIAN_POINT ( 'NONE',  ( 0.000000000000000000, 0.000000000000000000, 0.000000000000000000 ) ) ;
#238 = COORDINATED_UNIVERSAL_TIME_OFFSET ( 1, 0, .AHEAD. ) ;
#239 = DIRECTION ( 'NONE',  ( -0.000000000000000000, -1.000000000000000000, -0.000000000000000000 ) ) ;
#240 = DIRECTION ( 'NONE',  ( -1.000000000000000000, 0.000000000000000000, 0.000000000000000000 ) ) ;
#241 = EDGE_CURVE ( 'NONE', #30, #231, #137, .T. ) ;
#242 = LOCAL_TIME ( 14, 0, 23.00000000000000000, #13 ) ;
#243 = ORIENTED_EDGE ( 'NONE', *, *, #201, .T. ) ;
#244 = CARTESIAN_POINT ( 'NONE',  ( 0.000000000000000000, 0.000000000000000000, 0.000000000000000000 ) ) ;
#245 = DIRECTION ( 'NONE',  ( 0.000000000000000000, 0.000000000000000000, 1.000000000000000000 ) ) ;
#246 = PERSON_AND_ORGANIZATION_ROLE ( 'design_owner' ) ;
#247 = LOCAL_TIME ( 14, 0, 23.00000000000000000, #168 ) ;
#248 = PRODUCT_RELATED_PRODUCT_CATEGORY ( 'detail', '', ( #138 ) ) ;
#249 = PERSON_AND_ORGANIZATION ( #105, #102 ) ;
#250 = PRODUCT_RELATED_PRODUCT_CATEGORY ( 'detail', '', ( #99 ) ) ;
#251 = PERSON_AND_ORGANIZATION ( #105, #102 ) ;
#252 = APPROVAL_ROLE ( '' ) ;
#253 = APPROVAL_DATE_TIME ( #207, #212 ) ;
#254 = DIRECTION ( 'NONE',  ( -0.000000000000000000, -1.000000000000000000, -0.000000000000000000 ) ) ;
#255 = ORIENTED_EDGE ( 'NONE', *, *, #213, .T. ) ;
#256 = CC_DESIGN_APPROVAL ( #46, ( #219 ) ) ;
#257 = ORIENTED_EDGE ( 'NONE', *, *, #151, .T. ) ;
#258 = AXIS2_PLACEMENT_3D ( 'NONE', #194, #81, #7 ) ;
#259 = DATE_AND_TIME ( #271, #210 ) ;
#260 = TOROIDAL_SURFACE ( 'NONE', #69, 22.00000000000000711, 2.000000000000003109 ) ;
#261 = DIRECTION ( 'NONE',  ( 0.000000000000000000, 0.000000000000000000, 1.000000000000000000 ) ) ;
#262 = CC_DESIGN_PERSON_AND_ORGANIZATION_ASSIGNMENT ( #89, #246, ( #138 ) ) ;
#263 = VERTEX_POINT ( 'NONE', #160 ) ;
#264 = DIRECTION ( 'NONE',  ( 1.000000000000000000, 0.000000000000000000, -1.224646799147353207E-16 ) ) ;
#265 = PERSON_AND_ORGANIZATION_ROLE ( 'classification_officer' ) ;
#266 = APPROVAL_STATUS ( 'not_yet_approved' ) ;
#267 = DATE_AND_TIME ( #21, #84 ) ;
#268 = CC_DESIGN_APPROVAL ( #72, ( #64 ) ) ;
#269 = APPROVAL_STATUS ( 'not_yet_approved' ) ;
#270 = AXIS2_PLACEMENT_3D ( 'NONE', #36, #264, #17 ) ;
#271 = CALENDAR_DATE ( 2021, 26, 4 ) ;
ENDSEC;
END-ISO-10303-21;
