ISO-10303-21;
HEADER;
FILE_DESCRIPTION (( 'STEP AP203' ),
    '1' );
FILE_NAME ('51020-V4A.step',
    '2023-09-08T07:10:29',
    ( '' ),
    ( '' ),
    'SwSTEP 2.0',
    'SolidWorks 2018',
    '' );
FILE_SCHEMA (( 'CONFIG_CONTROL_DESIGN' ));
ENDSEC;

DATA;
#1 = COORDINATED_UNIVERSAL_TIME_OFFSET ( 1, 0, .AHEAD. ) ;
#2 = AXIS2_PLACEMENT_3D ( 'NONE', #117, #86, #24 ) ;
#3 = DATE_AND_TIME ( #33, #60 ) ;
#4 = DIRECTION ( 'NONE',  ( 0.000000000000000000, 0.000000000000000000, -1.000000000000000000 ) ) ;
#5 = DIRECTION ( 'NONE',  ( -0.000000000000000000, -1.000000000000000000, -0.000000000000000000 ) ) ;
#6 = PERSON_AND_ORGANIZATION_ROLE ( 'creator' ) ;
#7 = DATE_AND_TIME ( #98, #66 ) ;
#8 = AXIS2_PLACEMENT_3D ( 'NONE', #119, #56, #57 ) ;
#9 = CC_DESIGN_DATE_AND_TIME_ASSIGNMENT ( #91, #51, ( #103 ) ) ;
#10 = APPROVAL_PERSON_ORGANIZATION ( #15, #21, #40 ) ;
#11 = LOCAL_TIME ( 9, 10, 29.00000000000000000, #31 ) ;
#12 = DATE_AND_TIME ( #129, #111 ) ;
#13 = SPHERICAL_SURFACE ( 'NONE', #8, 10.00000000000000178 ) ;
#14 = LOCAL_TIME ( 9, 10, 29.00000000000000000, #1 ) ;
#15 = PERSON_AND_ORGANIZATION ( #26, #96 ) ;
#16 = CC_DESIGN_APPROVAL ( #20, ( #123 ) ) ;
#17 = CYLINDRICAL_SURFACE ( 'NONE', #2, 2.499999999999988454 ) ;
#18 = CARTESIAN_POINT ( 'NONE',  ( 0.000000000000000000, 0.000000000000000000, 0.000000000000000000 ) ) ;
#19 = CARTESIAN_POINT ( 'NONE',  ( 0.000000000000000000, 17.00000000000000000, 0.000000000000000000 ) ) ;
#20 = APPROVAL ( #132, 'UNSPECIFIED' ) ;
#21 = APPROVAL ( #28, 'UNSPECIFIED' ) ;
#22 = ADVANCED_FACE ( 'NONE', ( #34 ), #106, .F. ) ;
#23 = ADVANCED_FACE ( 'NONE', ( #65, #87 ), #17, .F. ) ;
#24 = DIRECTION ( 'NONE',  ( 0.000000000000000000, 0.000000000000000000, -1.000000000000000000 ) ) ;
#25 = ORIENTED_EDGE ( 'NONE', *, *, #62, .T. ) ;
#26 = PERSON ( 'UNSPECIFIED', 'UNSPECIFIED', 'UNSPECIFIED', ('UNSPECIFIED'), ('UNSPECIFIED'), ('UNSPECIFIED') ) ;
#27 = AXIS2_PLACEMENT_3D ( 'NONE', #43, #5, #133 ) ;
#28 = APPROVAL_STATUS ( 'not_yet_approved' ) ;
#29 =( NAMED_UNIT ( * ) PLANE_ANGLE_UNIT ( ) SI_UNIT ( $, .RADIAN. ) );
#30 = APPROVAL_ROLE ( '' ) ;
#31 = COORDINATED_UNIVERSAL_TIME_OFFSET ( 1, 0, .AHEAD. ) ;
#32 = EDGE_LOOP ( 'NONE', ( #118 ) ) ;
#33 = CALENDAR_DATE ( 2023, 8, 9 ) ;
#34 = FACE_OUTER_BOUND ( 'NONE', #122, .T. ) ;
#35 = APPROVAL_PERSON_ORGANIZATION ( #63, #20, #30 ) ;
#36 = PRODUCT ( '51020-V4A', '51020-V4A', '', ( #89 ) ) ;
#37 = CARTESIAN_POINT ( 'NONE',  ( 0.000000000000000000, 0.3175416344814545599, 2.499999999999988454 ) ) ;
#38 = PERSON_AND_ORGANIZATION ( #26, #96 ) ;
#39 = UNCERTAINTY_MEASURE_WITH_UNIT (LENGTH_MEASURE( 1.000000000000000082E-05 ), #59, 'distance_accuracy_value', 'NONE');
#40 = APPROVAL_ROLE ( '' ) ;
#41 = DIRECTION ( 'NONE',  ( 1.000000000000000000, 0.000000000000000000, 0.000000000000000000 ) ) ;
#42 = SHAPE_DEFINITION_REPRESENTATION ( #93, #126 ) ;
#43 = CARTESIAN_POINT ( 'NONE',  ( 0.000000000000000000, 0.3175416344814545599, 0.000000000000000000 ) ) ;
#44 = VERTEX_POINT ( 'NONE', #74 ) ;
#45 = COORDINATED_UNIVERSAL_TIME_OFFSET ( 1, 0, .AHEAD. ) ;
#46 = APPROVAL_DATE_TIME ( #7, #109 ) ;
#47 = CC_DESIGN_DATE_AND_TIME_ASSIGNMENT ( #12, #134, ( #114 ) ) ;
#48 = ORIENTED_EDGE ( 'NONE', *, *, #62, .F. ) ;
#49 = APPLICATION_CONTEXT ( 'configuration controlled 3d designs of mechanical parts and assemblies' ) ;
#50 =( NAMED_UNIT ( * ) SI_UNIT ( $, .STERADIAN. ) SOLID_ANGLE_UNIT ( ) );
#51 = DATE_TIME_ROLE ( 'creation_date' ) ;
#52 = EDGE_LOOP ( 'NONE', ( #48 ) ) ;
#53 = COORDINATED_UNIVERSAL_TIME_OFFSET ( 1, 0, .AHEAD. ) ;
#54 = ADVANCED_FACE ( 'NONE', ( #58 ), #13, .T. ) ;
#55 = EDGE_LOOP ( 'NONE', ( #25 ) ) ;
#56 = DIRECTION ( 'NONE',  ( -0.000000000000000000, 0.000000000000000000, -1.000000000000000000 ) ) ;
#57 = DIRECTION ( 'NONE',  ( -1.000000000000000000, -1.734723475976806848E-16, 0.000000000000000000 ) ) ;
#58 = FACE_OUTER_BOUND ( 'NONE', #52, .T. ) ;
#59 =( LENGTH_UNIT ( ) NAMED_UNIT ( * ) SI_UNIT ( .MILLI., .METRE. ) );
#60 = LOCAL_TIME ( 9, 10, 29.00000000000000000, #85 ) ;
#61 = CC_DESIGN_PERSON_AND_ORGANIZATION_ASSIGNMENT ( #64, #107, ( #114 ) ) ;
#62 = EDGE_CURVE ( 'NONE', #78, #78, #125, .T. ) ;
#63 = PERSON_AND_ORGANIZATION ( #26, #96 ) ;
#64 = PERSON_AND_ORGANIZATION ( #26, #96 ) ;
#65 = FACE_OUTER_BOUND ( 'NONE', #55, .T. ) ;
#66 = LOCAL_TIME ( 9, 10, 29.00000000000000000, #53 ) ;
#67 = DIRECTION ( 'NONE',  ( -0.000000000000000000, -1.000000000000000000, -0.000000000000000000 ) ) ;
#68 = APPLICATION_PROTOCOL_DEFINITION ( 'international standard', 'config_control_design', 1994, #49 ) ;
#69 = DATE_AND_TIME ( #105, #14 ) ;
#70 = CIRCLE ( 'NONE', #94, 2.499999999999986677 ) ;
#71 = CC_DESIGN_APPROVAL ( #109, ( #103 ) ) ;
#72 = CC_DESIGN_PERSON_AND_ORGANIZATION_ASSIGNMENT ( #38, #77, ( #103 ) ) ;
#73 = DIRECTION ( 'NONE',  ( -0.000000000000000000, -1.000000000000000000, -0.000000000000000000 ) ) ;
#74 = CARTESIAN_POINT ( 'NONE',  ( 0.000000000000000000, 17.00000000000000000, -2.499999999999986677 ) ) ;
#75 = PERSON_AND_ORGANIZATION ( #26, #96 ) ;
#76 = APPLICATION_PROTOCOL_DEFINITION ( 'international standard', 'config_control_design', 1994, #121 ) ;
#77 = PERSON_AND_ORGANIZATION_ROLE ( 'creator' ) ;
#78 = VERTEX_POINT ( 'NONE', #37 ) ;
#79 = APPROVAL_PERSON_ORGANIZATION ( #127, #109, #101 ) ;
#80 = AXIS2_PLACEMENT_3D ( 'NONE', #18, #100, #41 ) ;
#81 = PERSON_AND_ORGANIZATION ( #26, #96 ) ;
#82 = AXIS2_PLACEMENT_3D ( 'NONE', #99, #73, #4 ) ;
#83 = CLOSED_SHELL ( 'NONE', ( #54, #22, #23 ) ) ;
#84 = CC_DESIGN_PERSON_AND_ORGANIZATION_ASSIGNMENT ( #81, #6, ( #123 ) ) ;
#85 = COORDINATED_UNIVERSAL_TIME_OFFSET ( 1, 0, .AHEAD. ) ;
#86 = DIRECTION ( 'NONE',  ( -0.000000000000000000, -1.000000000000000000, -0.000000000000000000 ) ) ;
#87 = FACE_OUTER_BOUND ( 'NONE', #32, .T. ) ;
#88 = PERSON_AND_ORGANIZATION_ROLE ( 'design_supplier' ) ;
#89 = MECHANICAL_CONTEXT ( 'NONE', #121, 'mechanical' ) ;
#90 = SECURITY_CLASSIFICATION_LEVEL ( 'unclassified' ) ;
#91 = DATE_AND_TIME ( #115, #11 ) ;
#92 = CC_DESIGN_SECURITY_CLASSIFICATION ( #114, ( #123 ) ) ;
#93 = PRODUCT_DEFINITION_SHAPE ( 'NONE', 'NONE',  #103 ) ;
#94 = AXIS2_PLACEMENT_3D ( 'NONE', #19, #67, #110 ) ;
#95 = ORIENTED_EDGE ( 'NONE', *, *, #124, .T. ) ;
#96 = ORGANIZATION ( 'UNSPECIFIED', 'UNSPECIFIED', '' ) ;
#97 = CC_DESIGN_APPROVAL ( #21, ( #114 ) ) ;
#98 = CALENDAR_DATE ( 2023, 8, 9 ) ;
#99 = CARTESIAN_POINT ( 'NONE',  ( 0.000000000000000000, 17.00000000000000000, 0.000000000000000000 ) ) ;
#100 = DIRECTION ( 'NONE',  ( 0.000000000000000000, 0.000000000000000000, 1.000000000000000000 ) ) ;
#101 = APPROVAL_ROLE ( '' ) ;
#102 = PERSON_AND_ORGANIZATION_ROLE ( 'design_owner' ) ;
#103 = PRODUCT_DEFINITION ( 'UNKNOWN', '', #123, #120 ) ;
#104 = PRODUCT_RELATED_PRODUCT_CATEGORY ( 'detail', '', ( #36 ) ) ;
#105 = CALENDAR_DATE ( 2023, 8, 9 ) ;
#106 = CONICAL_SURFACE ( 'NONE', #82, 2.499999999999986677, 1.029744258676651647 ) ;
#107 = PERSON_AND_ORGANIZATION_ROLE ( 'classification_officer' ) ;
#108 = PERSON_AND_ORGANIZATION ( #26, #96 ) ;
#109 = APPROVAL ( #112, 'UNSPECIFIED' ) ;
#110 = DIRECTION ( 'NONE',  ( 0.000000000000000000, 0.000000000000000000, -1.000000000000000000 ) ) ;
#111 = LOCAL_TIME ( 9, 10, 29.00000000000000000, #45 ) ;
#112 = APPROVAL_STATUS ( 'not_yet_approved' ) ;
#113 = APPROVAL_DATE_TIME ( #3, #20 ) ;
#114 = SECURITY_CLASSIFICATION ( '', '', #90 ) ;
#115 = CALENDAR_DATE ( 2023, 8, 9 ) ;
#116 = APPROVAL_DATE_TIME ( #69, #21 ) ;
#117 = CARTESIAN_POINT ( 'NONE',  ( 0.000000000000000000, 0.000000000000000000, 0.000000000000000000 ) ) ;
#118 = ORIENTED_EDGE ( 'NONE', *, *, #124, .F. ) ;
#119 = CARTESIAN_POINT ( 'NONE',  ( -6.933347799794072061E-32, 10.00000000000000178, 0.000000000000000000 ) ) ;
#120 = DESIGN_CONTEXT ( 'detailed design', #49, 'design' ) ;
#121 = APPLICATION_CONTEXT ( 'configuration controlled 3d designs of mechanical parts and assemblies' ) ;
#122 = EDGE_LOOP ( 'NONE', ( #95 ) ) ;
#123 = PRODUCT_DEFINITION_FORMATION_WITH_SPECIFIED_SOURCE ( 'ANY', '', #36, .NOT_KNOWN. ) ;
#124 = EDGE_CURVE ( 'NONE', #44, #44, #70, .T. ) ;
#125 = CIRCLE ( 'NONE', #27, 2.499999999999988454 ) ;
#126 = ADVANCED_BREP_SHAPE_REPRESENTATION ( '51020-V4A', ( #135, #80 ), #130 ) ;
#127 = PERSON_AND_ORGANIZATION ( #26, #96 ) ;
#128 = CC_DESIGN_PERSON_AND_ORGANIZATION_ASSIGNMENT ( #75, #88, ( #123 ) ) ;
#129 = CALENDAR_DATE ( 2023, 8, 9 ) ;
#130 =( GEOMETRIC_REPRESENTATION_CONTEXT ( 3 ) GLOBAL_UNCERTAINTY_ASSIGNED_CONTEXT ( ( #39 ) ) GLOBAL_UNIT_ASSIGNED_CONTEXT ( ( #59, #29, #50 ) ) REPRESENTATION_CONTEXT ( 'NONE', 'WORKASPACE' ) );
#131 = CC_DESIGN_PERSON_AND_ORGANIZATION_ASSIGNMENT ( #108, #102, ( #36 ) ) ;
#132 = APPROVAL_STATUS ( 'not_yet_approved' ) ;
#133 = DIRECTION ( 'NONE',  ( 0.000000000000000000, 0.000000000000000000, 1.000000000000000000 ) ) ;
#134 = DATE_TIME_ROLE ( 'classification_date' ) ;
#135 = MANIFOLD_SOLID_BREP ( 'M6 Gewindebohrung2', #83 ) ;
ENDSEC;
END-ISO-10303-21;
