ISO-10303-21;
HEADER;
FILE_DESCRIPTION (( 'STEP AP203' ),
    '1' );
FILE_NAME ('51025-240M8.step',
    '2023-09-08T07:10:33',
    ( '' ),
    ( '' ),
    'SwSTEP 2.0',
    'SolidWorks 2018',
    '' );
FILE_SCHEMA (( 'CONFIG_CONTROL_DESIGN' ));
ENDSEC;

DATA;
#1 = PERSON_AND_ORGANIZATION ( #65, #26 ) ;
#2 = CARTESIAN_POINT ( 'NONE',  ( 0.000000000000000000, 0.000000000000000000, 0.000000000000000000 ) ) ;
#3 = CLOSED_SHELL ( 'NONE', ( #91, #28, #144, #17 ) ) ;
#4 = DIRECTION ( 'NONE',  ( -0.000000000000000000, -1.000000000000000000, -0.000000000000000000 ) ) ;
#5 = APPLICATION_CONTEXT ( 'configuration controlled 3d designs of mechanical parts and assemblies' ) ;
#6 = PERSON_AND_ORGANIZATION_ROLE ( 'creator' ) ;
#7 = APPLICATION_CONTEXT ( 'configuration controlled 3d designs of mechanical parts and assemblies' ) ;
#8 = DATE_AND_TIME ( #88, #124 ) ;
#9 = PERSON_AND_ORGANIZATION_ROLE ( 'design_supplier' ) ;
#10 = EDGE_LOOP ( 'NONE', ( #111 ) ) ;
#11 = AXIS2_PLACEMENT_3D ( 'NONE', #118, #131, #69 ) ;
#12 = EDGE_LOOP ( 'NONE', ( #153 ) ) ;
#13 = CC_DESIGN_APPROVAL ( #94, ( #152 ) ) ;
#14 = LOCAL_TIME ( 9, 10, 33.00000000000000000, #105 ) ;
#15 = VERTEX_POINT ( 'NONE', #132 ) ;
#16 = DATE_AND_TIME ( #49, #141 ) ;
#17 = ADVANCED_FACE ( 'NONE', ( #113, #136 ), #64, .F. ) ;
#18 = CARTESIAN_POINT ( 'NONE',  ( -6.933347799794072061E-32, 12.50000000000000000, 0.000000000000000000 ) ) ;
#19 =( NAMED_UNIT ( * ) PLANE_ANGLE_UNIT ( ) SI_UNIT ( $, .RADIAN. ) );
#20 = AXIS2_PLACEMENT_3D ( 'NONE', #18, #55, #143 ) ;
#21 = APPROVAL_PERSON_ORGANIZATION ( #145, #40, #44 ) ;
#22 = CARTESIAN_POINT ( 'NONE',  ( 0.000000000000000000, 0.6250000000000039968, -3.399999999999997247 ) ) ;
#23 = CONICAL_SURFACE ( 'NONE', #77, 3.399999999999995470, 1.029744258676652313 ) ;
#24 = UNCERTAINTY_MEASURE_WITH_UNIT (LENGTH_MEASURE( 1.000000000000000082E-05 ), #109, 'distance_accuracy_value', 'NONE');
#25 = CC_DESIGN_DATE_AND_TIME_ASSIGNMENT ( #8, #34, ( #152 ) ) ;
#26 = ORGANIZATION ( 'UNSPECIFIED', 'UNSPECIFIED', '' ) ;
#27 = CIRCLE ( 'NONE', #11, 3.519341738104498685 ) ;
#28 = ADVANCED_FACE ( 'NONE', ( #117 ), #23, .F. ) ;
#29 = COORDINATED_UNIVERSAL_TIME_OFFSET ( 1, 0, .AHEAD. ) ;
#30 = EDGE_CURVE ( 'NONE', #147, #147, #126, .T. ) ;
#31 = LOCAL_TIME ( 9, 10, 33.00000000000000000, #101 ) ;
#32 = MECHANICAL_CONTEXT ( 'NONE', #5, 'mechanical' ) ;
#33 = CC_DESIGN_PERSON_AND_ORGANIZATION_ASSIGNMENT ( #1, #108, ( #127 ) ) ;
#34 = DATE_TIME_ROLE ( 'creation_date' ) ;
#35 = EDGE_CURVE ( 'NONE', #37, #37, #27, .T. ) ;
#36 = CARTESIAN_POINT ( 'NONE',  ( 0.000000000000000000, 0.000000000000000000, 0.000000000000000000 ) ) ;
#37 = VERTEX_POINT ( 'NONE', #119 ) ;
#38 = CC_DESIGN_DATE_AND_TIME_ASSIGNMENT ( #125, #106, ( #127 ) ) ;
#39 = COORDINATED_UNIVERSAL_TIME_OFFSET ( 1, 0, .AHEAD. ) ;
#40 = APPROVAL ( #148, 'UNSPECIFIED' ) ;
#41 = ORIENTED_EDGE ( 'NONE', *, *, #128, .T. ) ;
#42 = APPROVAL_DATE_TIME ( #79, #71 ) ;
#43 = DIRECTION ( 'NONE',  ( -0.000000000000000000, -1.000000000000000000, -0.000000000000000000 ) ) ;
#44 = APPROVAL_ROLE ( '' ) ;
#45 = CARTESIAN_POINT ( 'NONE',  ( 0.000000000000000000, 20.00000000000000000, 0.000000000000000000 ) ) ;
#46 =( GEOMETRIC_REPRESENTATION_CONTEXT ( 3 ) GLOBAL_UNCERTAINTY_ASSIGNED_CONTEXT ( ( #24 ) ) GLOBAL_UNIT_ASSIGNED_CONTEXT ( ( #109, #19, #73 ) ) REPRESENTATION_CONTEXT ( 'NONE', 'WORKASPACE' ) );
#47 = DIRECTION ( 'NONE',  ( -0.000000000000000000, -1.000000000000000000, -0.000000000000000000 ) ) ;
#48 = CC_DESIGN_APPROVAL ( #71, ( #127 ) ) ;
#49 = CALENDAR_DATE ( 2023, 8, 9 ) ;
#50 = MANIFOLD_SOLID_BREP ( 'M8 Gewindebohrung1', #3 ) ;
#51 = EDGE_LOOP ( 'NONE', ( #62 ) ) ;
#52 = PERSON_AND_ORGANIZATION ( #65, #26 ) ;
#53 = CARTESIAN_POINT ( 'NONE',  ( 0.000000000000000000, 0.6250000000000039968, 0.000000000000000000 ) ) ;
#54 = CARTESIAN_POINT ( 'NONE',  ( 0.000000000000000000, 20.00000000000000000, 0.000000000000000000 ) ) ;
#55 = DIRECTION ( 'NONE',  ( -0.000000000000000000, 0.000000000000000000, -1.000000000000000000 ) ) ;
#56 = PERSON_AND_ORGANIZATION_ROLE ( 'creator' ) ;
#57 = DIRECTION ( 'NONE',  ( 0.000000000000000000, 0.000000000000000000, -1.000000000000000000 ) ) ;
#58 = DIRECTION ( 'NONE',  ( 0.000000000000000000, 0.000000000000000000, -1.000000000000000000 ) ) ;
#59 = CC_DESIGN_SECURITY_CLASSIFICATION ( #127, ( #114 ) ) ;
#60 = APPROVAL_STATUS ( 'not_yet_approved' ) ;
#61 = DIRECTION ( 'NONE',  ( 0.000000000000000000, 0.000000000000000000, 1.000000000000000000 ) ) ;
#62 = ORIENTED_EDGE ( 'NONE', *, *, #35, .T. ) ;
#63 = CC_DESIGN_PERSON_AND_ORGANIZATION_ASSIGNMENT ( #115, #6, ( #114 ) ) ;
#64 = CONICAL_SURFACE ( 'NONE', #80, 4.025000000000000355, 0.7853981633974479459 ) ;
#65 = PERSON ( 'UNSPECIFIED', 'UNSPECIFIED', 'UNSPECIFIED', ('UNSPECIFIED'), ('UNSPECIFIED'), ('UNSPECIFIED') ) ;
#66 = DIRECTION ( 'NONE',  ( 0.000000000000000000, 0.000000000000000000, -1.000000000000000000 ) ) ;
#67 = SHAPE_DEFINITION_REPRESENTATION ( #135, #99 ) ;
#68 = EDGE_LOOP ( 'NONE', ( #41 ) ) ;
#69 = DIRECTION ( 'NONE',  ( 0.000000000000000000, 0.000000000000000000, 1.000000000000000000 ) ) ;
#70 = PERSON_AND_ORGANIZATION_ROLE ( 'design_owner' ) ;
#71 = APPROVAL ( #83, 'UNSPECIFIED' ) ;
#72 = APPROVAL_DATE_TIME ( #103, #94 ) ;
#73 =( NAMED_UNIT ( * ) SI_UNIT ( $, .STERADIAN. ) SOLID_ANGLE_UNIT ( ) );
#74 = EDGE_LOOP ( 'NONE', ( #134 ) ) ;
#75 = DESIGN_CONTEXT ( 'detailed design', #7, 'design' ) ;
#76 = PERSON_AND_ORGANIZATION ( #65, #26 ) ;
#77 = AXIS2_PLACEMENT_3D ( 'NONE', #54, #137, #146 ) ;
#78 = FACE_OUTER_BOUND ( 'NONE', #12, .T. ) ;
#79 = DATE_AND_TIME ( #138, #14 ) ;
#80 = AXIS2_PLACEMENT_3D ( 'NONE', #2, #43, #66 ) ;
#81 = PRODUCT ( '51025-240M8', '51025-240M8', '', ( #32 ) ) ;
#82 = APPROVAL_ROLE ( '' ) ;
#83 = APPROVAL_STATUS ( 'not_yet_approved' ) ;
#84 = APPLICATION_PROTOCOL_DEFINITION ( 'international standard', 'config_control_design', 1994, #5 ) ;
#85 = ORIENTED_EDGE ( 'NONE', *, *, #128, .F. ) ;
#86 = AXIS2_PLACEMENT_3D ( 'NONE', #45, #150, #58 ) ;
#87 = LOCAL_TIME ( 9, 10, 33.00000000000000000, #29 ) ;
#88 = CALENDAR_DATE ( 2023, 8, 9 ) ;
#89 = AXIS2_PLACEMENT_3D ( 'NONE', #36, #47, #57 ) ;
#90 = PERSON_AND_ORGANIZATION ( #65, #26 ) ;
#91 = ADVANCED_FACE ( 'NONE', ( #107 ), #93, .T. ) ;
#92 = DIRECTION ( 'NONE',  ( 0.000000000000000000, 0.000000000000000000, -1.000000000000000000 ) ) ;
#93 = SPHERICAL_SURFACE ( 'NONE', #20, 12.50000000000000000 ) ;
#94 = APPROVAL ( #60, 'UNSPECIFIED' ) ;
#95 = APPROVAL_PERSON_ORGANIZATION ( #142, #94, #82 ) ;
#96 = CC_DESIGN_PERSON_AND_ORGANIZATION_ASSIGNMENT ( #100, #70, ( #81 ) ) ;
#97 = APPROVAL_ROLE ( '' ) ;
#98 = SECURITY_CLASSIFICATION_LEVEL ( 'unclassified' ) ;
#99 = ADVANCED_BREP_SHAPE_REPRESENTATION ( '51025-240M8', ( #50, #110 ), #46 ) ;
#100 = PERSON_AND_ORGANIZATION ( #65, #26 ) ;
#101 = COORDINATED_UNIVERSAL_TIME_OFFSET ( 1, 0, .AHEAD. ) ;
#102 = CIRCLE ( 'NONE', #86, 3.399999999999995470 ) ;
#103 = DATE_AND_TIME ( #129, #87 ) ;
#104 = EDGE_LOOP ( 'NONE', ( #85 ) ) ;
#105 = COORDINATED_UNIVERSAL_TIME_OFFSET ( 1, 0, .AHEAD. ) ;
#106 = DATE_TIME_ROLE ( 'classification_date' ) ;
#107 = FACE_OUTER_BOUND ( 'NONE', #10, .T. ) ;
#108 = PERSON_AND_ORGANIZATION_ROLE ( 'classification_officer' ) ;
#109 =( LENGTH_UNIT ( ) NAMED_UNIT ( * ) SI_UNIT ( .MILLI., .METRE. ) );
#110 = AXIS2_PLACEMENT_3D ( 'NONE', #120, #61, #139 ) ;
#111 = ORIENTED_EDGE ( 'NONE', *, *, #35, .F. ) ;
#112 = APPROVAL_PERSON_ORGANIZATION ( #90, #71, #97 ) ;
#113 = FACE_OUTER_BOUND ( 'NONE', #51, .T. ) ;
#114 = PRODUCT_DEFINITION_FORMATION_WITH_SPECIFIED_SOURCE ( 'ANY', '', #81, .NOT_KNOWN. ) ;
#115 = PERSON_AND_ORGANIZATION ( #65, #26 ) ;
#116 = CC_DESIGN_PERSON_AND_ORGANIZATION_ASSIGNMENT ( #52, #56, ( #152 ) ) ;
#117 = FACE_OUTER_BOUND ( 'NONE', #68, .T. ) ;
#118 = CARTESIAN_POINT ( 'NONE',  ( -6.933347799794072061E-32, 0.5056582618955026698, 0.000000000000000000 ) ) ;
#119 = CARTESIAN_POINT ( 'NONE',  ( -6.933347799794072061E-32, 0.5056582618955026698, 3.519341738104498685 ) ) ;
#120 = CARTESIAN_POINT ( 'NONE',  ( 0.000000000000000000, 0.000000000000000000, 0.000000000000000000 ) ) ;
#121 = CC_DESIGN_APPROVAL ( #40, ( #114 ) ) ;
#122 = APPLICATION_PROTOCOL_DEFINITION ( 'international standard', 'config_control_design', 1994, #7 ) ;
#123 = FACE_OUTER_BOUND ( 'NONE', #104, .T. ) ;
#124 = LOCAL_TIME ( 9, 10, 33.00000000000000000, #149 ) ;
#125 = DATE_AND_TIME ( #151, #31 ) ;
#126 = CIRCLE ( 'NONE', #155, 3.399999999999997247 ) ;
#127 = SECURITY_CLASSIFICATION ( '', '', #98 ) ;
#128 = EDGE_CURVE ( 'NONE', #15, #15, #102, .T. ) ;
#129 = CALENDAR_DATE ( 2023, 8, 9 ) ;
#130 = CYLINDRICAL_SURFACE ( 'NONE', #89, 3.399999999999996358 ) ;
#131 = DIRECTION ( 'NONE',  ( -0.000000000000000000, -1.000000000000000000, -0.000000000000000000 ) ) ;
#132 = CARTESIAN_POINT ( 'NONE',  ( 0.000000000000000000, 20.00000000000000000, -3.399999999999995470 ) ) ;
#133 = PRODUCT_RELATED_PRODUCT_CATEGORY ( 'detail', '', ( #81 ) ) ;
#134 = ORIENTED_EDGE ( 'NONE', *, *, #30, .F. ) ;
#135 = PRODUCT_DEFINITION_SHAPE ( 'NONE', 'NONE',  #152 ) ;
#136 = FACE_BOUND ( 'NONE', #74, .T. ) ;
#137 = DIRECTION ( 'NONE',  ( -0.000000000000000000, -1.000000000000000000, -0.000000000000000000 ) ) ;
#138 = CALENDAR_DATE ( 2023, 8, 9 ) ;
#139 = DIRECTION ( 'NONE',  ( 1.000000000000000000, 0.000000000000000000, 0.000000000000000000 ) ) ;
#140 = APPROVAL_DATE_TIME ( #16, #40 ) ;
#141 = LOCAL_TIME ( 9, 10, 33.00000000000000000, #39 ) ;
#142 = PERSON_AND_ORGANIZATION ( #65, #26 ) ;
#143 = DIRECTION ( 'NONE',  ( -1.000000000000000000, -1.387778780781445676E-16, 0.000000000000000000 ) ) ;
#144 = ADVANCED_FACE ( 'NONE', ( #123, #78 ), #130, .F. ) ;
#145 = PERSON_AND_ORGANIZATION ( #65, #26 ) ;
#146 = DIRECTION ( 'NONE',  ( 0.000000000000000000, 0.000000000000000000, -1.000000000000000000 ) ) ;
#147 = VERTEX_POINT ( 'NONE', #22 ) ;
#148 = APPROVAL_STATUS ( 'not_yet_approved' ) ;
#149 = COORDINATED_UNIVERSAL_TIME_OFFSET ( 1, 0, .AHEAD. ) ;
#150 = DIRECTION ( 'NONE',  ( -0.000000000000000000, -1.000000000000000000, -0.000000000000000000 ) ) ;
#151 = CALENDAR_DATE ( 2023, 8, 9 ) ;
#152 = PRODUCT_DEFINITION ( 'UNKNOWN', '', #114, #75 ) ;
#153 = ORIENTED_EDGE ( 'NONE', *, *, #30, .T. ) ;
#154 = CC_DESIGN_PERSON_AND_ORGANIZATION_ASSIGNMENT ( #76, #9, ( #114 ) ) ;
#155 = AXIS2_PLACEMENT_3D ( 'NONE', #53, #4, #92 ) ;
ENDSEC;
END-ISO-10303-21;
